Open B-String Riff (7 string)

by EmotionlessMusic

Description
Tablature
  • Open B-String Riff (7 string) by EmotionlessMusic

    Difficulty: Medium

    |

    Genre: Rock

    www.EmotionlessMusic.Net

    Okey, this is played on a 7 string. It's a riff I came up with that's mainly based around pull-offs on the low B-string. It also got an ascending hammer-on lick in the middle.

  • e-----------------------------------
    B-----------------------------------
    G-----------------------------------
    D-----------------------------------
    A-----------------------------------
    E-----------------------4-----------
    B-0--0-0-7p0-0-6--4-6-7---7-6-4-----
    
    w/palm mute
    
    e-----------------------------------
    B-----------------------------------
    G-----------------------------------
    D-----------------------------------
    A-----------------------------------
    E-----------------------2-----------
    B-0--0-0-7p0-0-4--0-2-4---4-2-0-----
    
    
    e-----------------------------------
    B-----------------------------------
    G-----------------------------------
    D-----------------------------------
    A-----------------------------------
    E-----------------------4-----------
    B-0--0-0-7p0-0-6--4-6-7---7-6-4-----
    
    e-------------------------------------------
    B-------------------------------------------
    G---------------------------------------9-8-
    D--------------------------------7h9h10-----
    A-------------------6h7h9-7h9h10------------
    E-------4h6h7-6h7h9-------------------------
    B-4h6h7-------------------------------------
    
    *Repeat first 3 bars*
    
    e-----------------------------------
    B-----------------------------------
    G-----------------------------------
    D-----------------------------------
    A-----------------------------------
    E------------------------------2----
    B-0--0-0-7p0-0-6p0-0-4p0-2h4-2-0----
    
    
    Tab Guide:
    | /   slide up
    | \\   slide down
    | h   hammer-on
    | p   pull-off
    | ~   vibrato
    | +   harmonic
    | x   Mute note
    | b   Bend
    | pb  Pre-bend
    | br  Bend release
    | pbr Pre-bend release
    | brb Bend release bend
              

Like this Riff?

Yes No

Create your Account


OR

Log in to ShareMyRiffs


OR
Forgot your password?

Reset your Password

Password reset

Your new password has been sent by email.