Whole Tone Scale Lick

by EmotionlessMusic

Description
Tablature
  • Whole Tone Scale Lick by EmotionlessMusic

    Difficulty: Medium

    |

    Genre: Shred

    www.EmotionlessMusic.net

    This is a whole note scale lick from one of my tunes. It features some stretchty hammer-on/pull-offs and some fast picking at the end. Played more slowly I find this to be a good warm up exercise.

  • e-----------------------------------
    B-----------------------------------
    G-/10--10p8p6------------------------
    D------------9p7p5------------------
    A------------------8p6-4------------
    E-----------------------------------
    B-----------------------------------
    
    
    e-----------------------------------------------
    B-----------------------------------------------
    G-------------6h8h10-10-10p8p6------------------
    D-------5h7h9------------------9p7p5------------
    A-4h6h8------------------------------4h6h8-6--4-
    E-----------------------------------------------
    B-----------------------------------------------
    
    
    e-----------------------------------
    B-----------------------------------
    G-/10--10p8p6------------------------
    D------------9p7p5------------------
    A------------------8p6-4------------
    E-----------------------------------
    B-----------------------------------
    
    e------------------------------------------------------
    B------------------------------------------------------
    G-------------6h8p6---6-----------6-8-10p8p6---6-------
    D-------5-7-9-------9---9-7-5-7-9------------9---9-7-5-
    A-4-6-8------------------------------------------------
    E------------------------------------------------------
    B------------------------------------------------------
    
    Tab Guide:
    | /   slide up
    | \\   slide down
    | h   hammer-on
    | p   pull-off
    | ~   vibrato
    | +   harmonic
    | x   Mute note
    | b   Bend
    | pb  Pre-bend
    | br  Bend release
    | pbr Pre-bend release
    | brb Bend release bend
              

Like this Riff?

Yes No

Create your Account


OR

Log in to ShareMyRiffs


OR
Forgot your password?

Reset your Password

Password reset

Your new password has been sent by email.