Canon Rock - Main Melody

by Carl Fernandes

Description
Tablature
  • Canon Rock - Main Melody by Carl Fernandes

    Difficulty: Medium

    |

    Genre: Rock

    This is the main melody from Canon Rock by JerryC, one of the most popular songs for guitarists online to play (judging from the amount of YouTube hits it's got!)

  • E|--17~----14--15--17~----14--15-----|
    B|-----------------------------------|
    G|-----------------------------------|
    D|-----------------------------------|
    A|-----------------------------------|
    E|-----------------------------------|
    
    E|--17----------------------14--15--|--14~------------14~------------|
    B|--------------14--15--17----------|---------15--17-----------------|
    G|------14--16----------------------|--------------------------------|
    D|----------------------------------|------------------------16--17--|
    A|----------------------------------|--------------------------------|
    E|----------------------------------|--------------------------------|
    
    E|----------------------------------|--------------------------------|
    B|----------------------15--14--15--|--------------------------------|
    G|--14--16--14------14--------------|---------16--14-----------------|
    D|--------------17------------------|--17~------------17~----16--14--|
    A|----------------------------------|--------------------------------|
    E|----------------------------------|--------------------------------|
    
    E|----------------------------------|--------------------------------|
    B|----------------------------------|------------------------14--15--|
    G|--------------------------14--16--|---------16--14--16~------------|
    D|--16--14------14--16--17----------|--17~---------------------------|
    A|----------17----------------------|--------------------------------|
    E|----------------------------------|--------------------------------|
    
    E|----------------------14--15--17--|--14~------------14~------------|
    B|----------14--15--17--------------|---------15--17---------17--15--|
    G|--14--16--------------------------|--------------------------------|
    D|----------------------------------|--------------------------------|
    A|----------------------------------|--------------------------------|
    E|----------------------------------|--------------------------------|
    
    E|---------------------------------|--------------------------------|
    B|--17--14--15--17--17b----15--14--|--15~--------14--15~------------|
    G|---------------------------------|---------16---------------------|
    D|---------------------------------|------------------------16--17--|
    A|---------------------------------|--------------------------------|
    E|---------------------------------|--------------------------------|
    
    
    E|----------------------------------|--------------------------------|
    B|----------------------15--14--15--|---------15--14-----------------|
    G|--14--16--14------14--------------|--16~------------16~----14------|
    D|--------------17------------------|----------------------------17--|
    A|----------------------------------|--------------------------------|
    E|----------------------------------|--------------------------------|
    
    
    E|----------------------------------|--------------------------------|
    B|--------------------------14--15--|---------15--14--15~----14------|
    G|--14--------------14--16----------|--16~-----------------------16--|
    D|------17--16--17------------------|--------------------------------|
    A|----------------------------------|--------------------------------|
    E|----------------------------------|--------------------------------|
    
    E|-------------------------------------------------------------------|
    B|-------14-15-17pb-15-14-15-----------------------------------------|
    G|-14-16-------------------------------------------------------------|
    D|-------------------------------------------------------------------|
    A|-------------------------------------------------------------------|
    E|-------------------------------------------------------------------|
    
    
    
    Tab Guide:
    | /   slide up
    | \\   slide down
    | h   hammer-on
    | p   pull-off
    | ~   vibrato
    | +   harmonic
    | x   Mute note
    | b   Bend
    | pb  Pre-bend
    | br  Bend release
    | pbr Pre-bend release
    | brb Bend release bend
              

Like this Riff?

Yes No

Create your Account


OR

Log in to ShareMyRiffs


OR
Forgot your password?

Reset your Password

Password reset

Your new password has been sent by email.