Sweet Child of Mine Intro

by Carl Fernandes

Description
Tablature
  • Sweet Child of Mine Intro by Carl Fernandes

    Difficulty: Medium

    |

    Genre: Rock

    It's considered the most popular Guns N' Roses song to play on guitar. Surprisingly hard to play due to having to skip a string... play it slow with a metronome and work your way to full speed :)

  • E|-------------15----14----|-------------15----14----|
    B|----15-------------------|----15-------------------|
    G|-------14-12----14----14-|-------14-12----14----14-|
    D|-12----------------------|-12----------------------|
    A|-------------------------|-------------------------|
    E|-------------------------|-------------------------|
    
    
    E|-------------15----14----|-------------15----14----|
    B|----15-------------------|----15-------------------|
    G|-------14-12----14----14-|-------14-12----14----14-|
    D|-14----------------------|-14----------------------|
    A|-------------------------|-------------------------|
    E|-------------------------|-------------------------|
    
    
    
    E|-------------15----14----|-------------15----14----|
    B|----15-------------------|----15-------------------|
    G|-12----14-12----14----14-|-12----14-12----14----14-|
    D|-------------------------|-------------------------|
    A|-------------------------|-------------------------|
    E|-------------------------|-------------------------|
    
    E|-------------15----14----|-------------15----14----|
    B|----15-------------------|----15-------------------|
    G|-------14-12----14----14-|-------14-12----14----14-|
    D|-12----------------------|-12----------------------|
    A|-------------------------|-------------------------|
    E|-------------------------|-------------------------|
    
    
    
    
    
    Tab Guide:
    | /   slide up
    | \\   slide down
    | h   hammer-on
    | p   pull-off
    | ~   vibrato
    | +   harmonic
    | x   Mute note
    | b   Bend
    | pb  Pre-bend
    | br  Bend release
    | pbr Pre-bend release
    | brb Bend release bend
              

Like this Riff?

Yes No

Create your Account


OR

Log in to ShareMyRiffs


OR
Forgot your password?

Reset your Password

Password reset

Your new password has been sent by email.